SG101 logo
SG101 Banner

Photo of the Day

Monterey Madness
Monterey Madness

IRC Status
  • Chatroom is empty
Current Polls
  • No polls at this time. Check out our past polls.
Current Contests
Donations

Help us meet our monthly goal:

55%

Donate Now

SurfGuitar101 News & Articles

The Pyramids "Midnight Run"


 Midnight Run 
“The Pyramids”
 
Tabbed by: waimeabay
Email: surfguitarplayer100@yahoo.com
Tuning: Standard E
 
e|-----------1--------1----]-----------3------3------------]----------|
B|-------2---------2----2--]-------3--------3---3------.---]----------|
G|--/-3---------3----------]--/-3---------3----------------]----------|
D|-------------------------]---------------------------.---]----------|
A|-------------------------]-------------------------------]----------|
E|-------------------------]-------------------------------]----------|
 
e|------------------------------------]-----------------------]-------|
B|------------------------------------].-------------------.--]-------|
G|------------------------------------]-----------------------]-------|
D|------------------------------------]-----------------------]-------|
A|--2---2-2--2-2---3--3-3---5--5---3--]--2--2-2--2-2-------.--]-------|
E|--0---0-0--0-0---1--1-1---3--3---1--]--0--0-0--0-0----------]-------|
 
**saxophone part arranged for guitar – sounds much better on the sax** 
e|--4----6----4----3----4—---3----1----3----1----0----1----3----1----0|
B|--------------------------------------------------------------------|
G|--------------------------------------------------------------------|
D|--------------------------------------------------------------------|
A|--------------------------------------------------------------------|
E|--------------------------------------------------------------------|
 
e|--------------------]----------------]-----------------]------------|
B|--------------------]----------------]-----------------]------------|
G|--5--555--3-5-3---3-]-5--555--3-5-3--]-----------------]------------|
D|----------------5---]---------------5]-5--555--3-5-3--3]-555--3-5-3-|
A|--------------------]----------------]---------------5-]-----------5|
E|--------------------]----------------]-----------------]------------|
 
e|----------------------]---------3--------]----------------------]---|
B|----------------------]------------6-4---]----------------------]---|
G|--5--555--3-5-3-----3-]--5--555--------5-]----------------------]---|
D|-----------------5----]------------------]---5-5-5--3-5-3----3--]---|
A|----------------------]------------------]-----------------5----]---|
E|----------------------]------------------]----------------------]---|
 
e|------------------------]-------------------------------------------|
B|------------------------]-------------------------------------------|
G|------------------------]-------------------------------------------|
D|--5-5-5--3--5--3--------]-------------------------------------------|
A|------------------5-----]-------------------------------------------|
E|------------------------]-------------------------------------------|
 
 **octave change on the first riff
e|------------15-------15-----]----------15--------15-----------------|
B|--------16--------16----16--]-------15--------15----15--------------|
G|--/-17----------17----------]--/-15--------15-----------------------|
D|----------------------------]---------------------------------------|
A|----------------------------]---------------------------------------|
E|----------------------------]---------------------------------------|

This story has 0 comments.


Comments are closed for this story. If you'd like to share your thoughts on this story with the site staff, you can contact us directly.