SG101 logo
SG101 Banner

Photo of the Day

Monterey Madness
Monterey Madness

IRC Status
  • Chatroom is empty
Current Polls
  • No polls at this time. Check out our past polls.
Current Contests
Donations

Help us meet our monthly goal:

55%

Donate Now

SurfGuitar101 News & Articles

Squad Car - Eddie & The Showmen


Here is some tab for Squad Car that I did a looong time ago. Thor from Monsters from Mars provided some help. Enjoy. Comments and corrections welcome.
Song:    Squad Car
Artist: Eddie & The Showmen
Album: "Toes on the Nose" - 32 Surf Age Instrumentals
Compilation Disc (Ace Records, UK)

Tabbed by Brian Neal - 4-March-2002

Squad Car was written by Paul Johnson of the Belairs.
(the Mr. Moto guys). Later, co-guitarist Eddie Bertrand
left the band to form Eddie & The Showmen, and they recorded
Squad Car along with several singles for the Liberty label.

Revision History:
26-March-2002 Thanks to Thor (thor1460@hotmail.com) for some corrections
for the part leading up to the chorus.

Main Verse:

|-------------------------------------|
|-------------------------------------|
|o-----------------------------------o|
|o-----------------------------------o|
|--0-0---0-2---0---0-2-3-3-2-0---2-0--|
|------3-----3-----------------3------|

|-----------------------------------------------------------------
|-----------------------------------------------------------------
|-----------------------------------------2-2-2-----------2-2-2---
|---------2-2-2-----------2-2-2---0-0-0-3-------3-0-0-0-3-------3-
|-0-0-0-3-------3-0-0-0-3-------3---------------------------------
|-----------------------------------------------------------------

---------------------------------------------------|
---------------------------------------------------|
---------------------------------------------------|
-2---2-2---2-2-2-2---2-2---2-2-0-------------------|
---------------------------------3-2-0-0---0-2---0-|
-----------------------------------------3-----3---|

Chorus:

--55...57875--55...57875--44...45754--55...57875------------------
--66...66666--55...55555--55...55555--55...55555------------------
------------------------------------------------------------------
------------------------------------------------------------------
------------------------------------------------------------------
------------------------------------------------------------------

--55...57875--55...57875--4-4-4-------0---------------------------
--66...66666--55...55555--5-5-5-3-1-0-1---------------------------
--------------------------------------2---------------------------
--------------------------------------2---------------------------
--------------------------------------0---------------------------
------------------------------------------------------------------

Repeat verse.

Extended Chorus:

--55...57875--55...57875--44...45754--55...57875------------------
--66...66666--55...55555--55...55555--55...55555------------------
------------------------------------------------------------------
------------------------------------------------------------------
------------------------------------------------------------------
------------------------------------------------------------------

--55...57875--55...57875--44...45754--5-5-5-5---------------------
--66...66666--55...55555--55...55555--5-5-5-5---------------------
------------------------------------------------------------------
------------------------------------------------------------------
------------------------------------------------------------------
------------------------------------------------------------------

--55...57875--55...57875--44...45754--55...57875------------------
--66...66666--55...55555--55...55555--55...55555------------------
------------------------------------------------------------------
------------------------------------------------------------------
------------------------------------------------------------------
------------------------------------------------------------------

--55...57875--55...57875--4-4-4-------0---------------------------
--66...66666--55...55555--5-5-5-3-1-0-1---------------------------
--------------------------------------2---------------------------
--------------------------------------2---------------------------
--------------------------------------0---------------------------
------------------------------------------------------------------

This story has 2 comments.


1.
avatar

Splendid!! thanks alot!=)

Serpico | 22-Apr-2008 18:35:22 | Flag
2.
avatar

Does someone want to post the chords? Smile

Brian | 23-Apr-2008 08:18:55 | Flag

Comments are closed for this story. If you'd like to share your thoughts on this story with the site staff, you can contact us directly.