SG101 logo
SG101 Banner

Photo of the Day

Monterey Madness
Monterey Madness

IRC Status
  • Chatroom is empty
Current Polls
  • No polls at this time. Check out our past polls.
Current Contests
Donations

Help us meet our monthly goal:

55%

Donate Now

SurfGuitar101 News & Articles

Tab: The Breeze and I - Bitch Boys


“The Breeze and I”
The Bitch Boys
-----------------------------------------------------------------------
Tabbed by: Waimeabay
Email: surfguitarplayer100@yahoo.com
 
Tuning: Standard E
 
 
Play 3x’s              ***Double Pick Throughout***       
e|-------------0~~--]-------------------------------------------------|
B|-------------0~~--]-------------------------------------------------|
G|-6----4---.—-1~~--]-------------------------------------------------|
D|-7----5------2~~--]--------------------------------2-2-2----2-------|
A|-7----5---.—-2~~--]---0-0-0-0---2-2-2-2---4-4-4-4--------4-----2--00|
E|-5----3------0~~--]-------------------------------------------------|
 
e|---------------------------------------------------2---5---2---4----|
B|-------------------------------------------0(b)-3-------------------|
G|---------------------------------------.----------------------------|
D|--------------------------------------------------------------------|
A|-00------------------------------------.----------------------------|
E|-----0-0-0-0--3-3-3-3-1--3--1-0-0-0-0-------------------------------|
 
e|--2---4---2---0--]---------------------------]----------------0~~---|
B|----------------2]--0--2--0------------------]----------------0~~---|
G|-----------------]------------2-----------2--]---6---4----.---1~~---|
D|-----------------]----------------4---222----]---7---5--------2~~---|
A|-----------------]---------------------------]---7---5----.-—-2~~---|
E|-----------------]---------------------------]---5---3--------0~~---|
 
e|-5s17s5---555555--77777--999999-12121212--9--12--9--7--55555--------|
B|--------------------------------------------------------------------|
G|--------------------------------------------------------------------|
D|--------------------------------------------------------------------|
A|--------------------------------------------------------------------|
E|--------------------------------------------------------------------|
                                                 (*play chorus slower) 
e|--------------------------------------------------------------------|
B|-55555--88888--66666---8888--6666--5555555555-----------------------|
G|-----------------------------------------------.--------------------|
D|--------------------------------------------------------****--------|
A|-----------------------------------------------.--------------------|
E|--------------------------------------------------------------------|
 
e|--------------------------------------------------------------------|
B|--------------------------------------------------------------------|
G|--2222--4444--6666--9--6--9--6--4--2---2222------------------------.|
D|----------------------------------------------2222---5555--3-5-3-2--|
A|--------------------------------------------------------------------|
E|-------------------------------------------------------------------.|
 
 
e|--------------------------------------------------------------------|
B|--------------------------------------------------------------------|
G|--------------------------------------------------------------------|
D|-------------4444--7777--4444--6666---4--6--4--2--------------------|
A|-2222--5555----------------------------------------4--2--4--2--0----|
E|--------------------------------------------------------------------|
 
e|-----------------------]----------------0~~-------------------------|
B|-----------------------]----------------0~~-------------------------|
G|-----------------------]------------.---1~~-------------------------|
D|-----------------------]---7---5--------2~~-------------------------|
A|-----------------------]---7---5----.---2~~-------------------------|
E|--222222222--00000000--]---5---3--------0~~-------------------------|
   

Great tune, I hope I did it some justice. There are many great versions. I personally like this one, Jim Messina’s and Wes Montgomery’s best.  I obviously could not tab the double picking accurately, but I believe I have most of the notes. Just listen and use this as a guide. Any suggestions are welcomed… and if anyone wants to tab out the rhythm guitar and add it…please feel free.

WB


This story has 0 comments.


Comments are closed for this story. If you'd like to share your thoughts on this story with the site staff, you can contact us directly.