SG101 logo
SG101 Banner

Photo of the Day

Monterey Madness
Monterey Madness

IRC Status
  • Chatroom is empty
Current Polls
  • No polls at this time. Check out our past polls.
Current Contests
Donations

Help us meet our monthly goal:

55%

Donate Now

SurfGuitar101 News & Articles

Dick Dale's Surf Rebel


Surf Rebel
“Dick Dale”

Tabbed by: Waimea Bay
Email: Surfguitarplayer100@yahoo.com
Tuning: Standard E
e|-----------------------------------------]--------------------------|
B|-----------------------------------------]--------------------------|
G|-----------------------------------------]--------------------------|
D|--------------------------2--0-----------]--------------------------|
A|-----------0--2--2-----2--------2--0--2--]-----------0--2--2--------|
E|--0--2--3-----------3--------------------]--0--2--3-----------------|
 
e|--------------------]----------------------------------------------]|
B|--------------------]----------------------------------------------]|
G|--------------------]----------------------------------------------]|
D|--------2--0-----0--]--0---0---0--0----0--0-----0--0----2--0-----0-]|
A|-----2--------2-----]-------2------2--------2--------2-------2-----]|
E|--3-----------------]----------------------------------------------]|
 
e|-----------------------------------]--------------------------------|
B|-----------------------------------]--------------------------------|
G|-----------------------------------]--2--2----2--2----2--2------2---|
D|-2--2-----2---2-----2--2----2----2-]--------3------3--------3------3|
A|-------3---------3-------3-----3---]--------------------------------|
E|-----------------------------------]--------------------------------|
 
                  **** With Rakes / Arpeggios / PM / Reverb Tank
e|----------------]--5--5--5---------9---9---9----------10--10--10----|
B|----------------]--5--5--5----.----9---9---9-----.----10--10--10---.|
G|-2---3---3---4--]--6--6--6---------10--10--10---------11--11--11----|
D|----------------]--7---------------11-----------------12------------|
A|----------------]--7----------.----11------------.----12-----------.|
E|----------------]--5---------------9------------------10------------|
 
**** With Rakes / Arpeggios / PM / Reverb Tank
e|--3--3--3------7--7--7-------8---8--8---8---------------------------|
B|--3--3--3---.--7--7--7---.---8---8--8---8---------------------------|
G|--4--4--4------8--8--8-------9---9--9---9---------------------------|
D|--5------------9-------------10---------10--------------------------|
A|--5---------.--9---------.---10---------10--------------------------|
E|--3------------7-------------8----------8---------------------------|
 
This has always been one of my favorite Dick Dale tunes. There are many glissandos within this song that I didn’t bother writing in.
Just listen for them and the timing of the notes. Any improvements are welcomed.

This story has 0 comments.


Comments are closed for this story. If you'd like to share your thoughts on this story with the site staff, you can contact us directly.