SG101 logo

Photo of the Day

Eddie Katcher's Basement
Eddie Katcher's Basement

IRC Status
  • Chatroom is empty
Current Polls
  • No polls at this time. Check out our past polls.
Current Contests
Donations

Help us meet our monthly goal:

41%

Donate Now

SurfGuitar101 News & Articles

Latin'ia Guitar Tab


Latin’ia

“The Sentinals”

 

Tabbed by: Waimea Bay
Email: Surfguitarplayer100@yahoo.com
e|---------0-------------0-----------------0-------------0----0~~~~~--|
B|-----2-------------2--------------2---------------2-----------------|
G|--1-----------1------------1-----------------1----------------------|
D|--------------------------------------------------------------------|
A|--------------------------------------------------------------------|
E|--------------------------------------------------------------------|
 
e|------------0---------------0---------------0-------------0---0~~~~~|
B|-------2---------------2---------------2--------------2-------------|
G|---2-------------2---------------2---------------2------------------|
D|--------------------------------------------------------------------|
A|--------------------------------------------------------------------|
E|--------------------------------------------------------------------|
 
e|------------0------------0----------0----------0-----0-~~~~~--------|
B|-------2------------2-----------2----------2------------------------|
G|---3------------3-----------3----------3----------------------------|
D|--------------------------------------------------------------------|
A|--------------------------------------------------------------------|
E|--------------------------------------------------------------------|
 
e|-0----1----3----1----0---1~~-------4-------4-------5--------5-------|
B|-0----1----3----1----0---1~~----------5-------5--------6-------6----|
G|-1----2----4----2----1---2~~-------------4-------4--------5-------5-|
D|-2----3----5----3----2---3~~----------------------------------------|
A|-2----3----5----3----2---3~~----------------------------------------|
E|-0----1----3----1----0---1~~----------------------------------------|
 
e|--4--------4---------5-------5---------5---5-5-5-5-5-4--------------|
B|-----5--------5---------6-------6----------6-6-6-6-6-5--------------|
G|--------4--------4---------5-------5-------5-5-5-5-5-4--------------|
D|--------------------------------------------------------------------|
A|--------------------------------------------------------------------|
E|--------------------------------------------------------------------|
 
e|-------------------------------------------0---1---13-13-13-13-13-12|
B|-------------------------------------------0---1---13-13-13-13-13-12|
G|-------------------------------------------1---2---14-14-14-14-14-13|
D|-2--3--5--3--2-----------------------------2---3---15-15-15-15-15-14|
A|----------------2--3--5--3--2--------------2---3--------------------|
E|-------------------------------0--1--3--1--0---1--------------------|
 
e|-7----7-----5-----5-----5-----7-------------4^5---7------7-----5----|
B|---6-----6-----6-----6-----6-----------4^5------------6-----6-----6-|
G|----------------------------------4^5-------------------------------|
D|--------------------------------------------------------------------|
A|--------------------------------------------------------------------|
E|--------------------------------------------------------------------|
 
e|-5-5-5-4-------------------------------------------------0--1-------|
B|-6-6-6-5--.----------------------------------------------0--1-------|
G|---------------------------------------------------------1--2-------|
D|----------.--2--3--5--3--2-------------------------------2--3-------|
A|-----------------------------2--3--5—-3-2----------------2--3-------|
E|-------------------------------------------0--1--3--1--0-0--1-------|
 
e|--------------------------------------------------------------------|
B|--------------------------------------------------------------------|
G|----------------------.---------------------------------------------|
D|--------------------------------------------------------------------|
A|----------------------.---0--0--0--0---3-2-0------0--0--0-0-----0--2|
E|-0--0--0--0--4--7--7-----------------------------------------4------|
 
(Parts of the song start to repeat then fade out on the Sentinals version)

This is my first electronic tab. I hope it finds somebody who thinks it is useful. There are definitely some notes I missed, and probably a bunch of mistakes. I am no guitar pro. I didn’t even have the recording in front of me, so please use this as a guide only. If you would like to make any improvements contact me.  Tab is very limited, so listen to the recording to better help you understand where to use your whammy bar, as well as the timing the notes.


This story has 1 comment.


1.
avatar

I think there are four C minor chords played before the first single notes.

HBkahuna | 08-Oct-2007 00:55:58 | Flag

Comments are closed for this story. If you'd like to share your thoughts on this story with the site staff, you can contact us directly.