SG101 logo
SG101 Banner

Photo of the Day

Monterey Madness
Monterey Madness

IRC Status
  • Chatroom is empty
Current Polls
  • No polls at this time. Check out our past polls.
Current Contests
Donations

Help us meet our monthly goal:

55%

Donate Now

SurfGuitar101 News & Articles

Munsters Theme Tab


I'm not sure how accurate this is, I got it from "tabpower.com", but it sure is fun to play.
    Em               Am               Em           D       Em
-------------------0-----------------------------------------------0----------------------
----------------0-----1--0---------0-------------------------------0----------------------
---------0---3--------------2---------2--0---2--0------------------0----------------------
-----2-----2---------------------------------------4--2--0--2------2----------------------
------------------------------------------------------------------------------------------
------------------------------------------------------------------------------------------

Am B7 Em
----------------------0---------------------------------------------0----------------------
-------------------0------1--0---------------0----------------------0----------------------
----------0-----3---------------2------0--2-------------------------0----------------------
-----2-------2----------------------------------------------1---2-------2---0--------------
------------------------------------------------2--2--2--4---------------------------------
-------------------------------------------------------------------------------------------

D7 G A7 D7 B7
-------------------------------------3-----------------------------------------------------
-----3---3---3---1---0--1-----0------0-----------------------------------------------------
-------------2-------------2-----0---------2---2---2---0------0----------------------------
-------------0-------------------------------------2-------4-----2--4--1-------------------
---------------------------------------------------0-----------------------2---------------
-------------------------------------------------------------------------------------------

Em Am Em
---------------------0-------------0-----------------0-------------------------------------
------------------0------1--0------1---0-------------0---0---------------------------------
---------0-----3---------------2----------2--0-------0------2--0---------------------------
-----2------2------------------------------------2-----------------2---2---0---------------
-------------------------------------------------------------------------------------------
-------------------------------------------------------------------------------------------

D7 G A7 D7 B7
-------------------------------------3-----------------------------------------------------
-----3---3---3---1---0--1-----0------0-----------------------------------0-----------------
-------------2-------------2-----0-------2---2---2---0------0------------2-----------------
-------------0-----------------------------------2-------4-----2--4--1---1-----------------
-------------------------------------------------0-----------------------------------------
-------------------------------------------------------------------------------------------

Em Am Em
---------------------0-------------0-----------------0-------------------------------------
------------------0------1--0------1---0-------------0---0---------------------------------
---------0-----3---------------2----------2--0-------0------2------------------------------
-----2------2------------------------------------2-----------------------------------------
-------------------------------------------------------------------------------------------
-------------------------------------------------------------------------------------------
-------------0-------0---------------0-----------0-----------------------------------------
-------------0---0-----------0-----------0-------0-----------------------------------------
-----0-------0-----------------------------------0-----------------------------------------
---------2-----------------------------------2---------------------------------------------
-------------------------------------------------------------------------------------------
-------------------------------------------------------------------------------------------

This story has 0 comments.


Comments are closed for this story. If you'd like to share your thoughts on this story with the site staff, you can contact us directly.