SG101 on the Web

Follow SurfGuitar101 on Twitter

Photo of the Day
Shoutbox

Clarry: Where do Jack-in-the-Boxes go for holidays? The Dordogne
49 days ago

bigtikidude: ???........
39 days ago

DannySnyder: Last night I was attacked by a gang of mimes, they did unspeakable things to me.
38 days ago

bigtikidude: Heyoooo
37 days ago

Twangy: mosrite
31 days ago

synchro: Did the mimes attack Shecky, Mycroft, or one of your other personalities? Smile
30 days ago

mpmizzou: zverb
26 days ago

fenderfan: Hello BTD - trying to send you a private message, but it says your mailbox is full.
24 days ago

bigtikidude: I'll clear it out, But better to email me direct, bigtikidude@...
24 days ago

bigtikidude: Dates and Line up announcement for the 11th annual Surf Guitar 101 convention: https://surf...
17 days ago

Please login or register to shout.

Current Polls

No polls at this time. Check out our past polls.

Current Contests

No contests at this time. Check out our past contests.

Donations

Help us meet our monthly goal:

100%

100%

Donate Now

SG101 Banner

SurfGuitar101 Forums » Surf Musician »

Permalink Tab??? Ventures Bumble Bee Twist

New Topic
Page 1 of 1

I this where a fella would go for a tab request?

Anyone have the middle part of the Ventures' "Bumble Bee Twist" tabbed?

Thanks,
Garrett

Last edited: Mar 09, 2007 12:21:42

You might want to edit your post and include Bumble Bee Twist in the subject line.

Site dude - S3 Agent #202
Need help with the site? SG101 FAQ - Send me a private message - Email me

"It starts... when it begins" -- Ralf Kilauea

Good idea! Thanks, and sorry.

Intro:  
E |-----------------------------------------------------|  
B |-----------------------------------------------------|  
G |-----------------------------------------------------|  
D |-----------------------------------------------------|  
A |-2-2-2-2---------2-2-2-2-----------------------------|  
E |---------0-0-0-0---------0-0-0-0---------------------|

E |-----------------------------------------------------|  
B |-----------------------------------------------------|  
G |-----------------------------------------------------|  
D |-----------------------------------------------------|  
A |-2-2-2-2-----2-----2-----2--2-1-0--------------------|  
E |---------0-0---0-0---0-0----------4-3-2-1------------|

Main rhythm:  
E |-----------------------------------------------------|  
B |-----------------------------------------------------|  
G |-----------------------------------------------------|  
D |-----------------------------------------------------|  
A |---------2-2-3-2---------2-2-3-2---------------------|  
E |-0-0-2-3---------0-0-2-3-----------------------------|

Lead:  
E |-3-3-2-1-0-0-1-2-3-3-2-1-0-0-1-2-3-3-2-1-0-0-1-2-3~--|  
B |-----------------------------------------------------|  
G |-----------------------------------------------------|  
D |-----------------------------------------------------|  
A |-----------------------------------------------------|  
E |-----------------------------------------------------|

Modulation:

E |-----------------------------------------------------|  
B |-----------------------------------------------------|  
G |-----------------------------------------------------|  
D |---------2-2-3-2---------2-2-3-2---------------------|  
A |-0-0-2-3---------0-0-2-3-----------------------------|  
E |-----------------------------------------------------|

Lead:  
E |-8-8-7-6-5-5-6-7-8-8-7-6-5-5-6-7-8-8-7-6-5-5-6-7-8~--|  
B |-----------------------------------------------------|  
G |-----------------------------------------------------|  
D |-----------------------------------------------------|  
A |-----------------------------------------------------|  
E |-----------------------------------------------------|

Chorus:  
B~-B-B-B~~B-B-B  
B/C-C-C~~C-C-C  
A#/B-B-B~~B-B-B  
B/C-C-C~~C-C-C  
B*  
B-B-B-B*

Then it goes back to the last part of the intro. Sorry, I don't have the bridge figured out yet. Hope this helps.

-Warren

That was excessively violent and completely unnecessary. I loved it.

I have it Garrett - along with a whole book of Ventures tabs.
you can borrow the book if you like.

I left you a PM with phone if you want to borrow it -

I love that song - one of my favorites.

Chris

"You can't tell where you're going if you don't know where you've been"

is that tune on one of the play guitar with the ventures albums?

We started working on that one last night using The Torquays recording as a guideline. Steve Soest does a nice job.

There is Surf east of Sepulveda.

One of my favorites! It took me along time to get the triplets timing right, but I can finally do it. I can play the tune perfectly... if no one else is around :lol:.

I think you are asking about the bridge, so I'll have a go at it, though last time I tried to post a tab it got messed up.

----------------  
----------------  
----------------  
---------1------  
------3----1-3--  
-1-4------------

--------------  
--------------  
--------2-----  
---1-3---3-1-  
-3------------  
---------------

------------------------  
------------------------  
---------------5-8---5-  
-3 slide to 7------7---  
------------------------  
------------------------

---------5------  
-------6--------  
-5-8-------5-8-  
-----------------  
-----------------  
-----------------

Play this part twice:

---------------8-11-  
-6-slide to 8-------  
---------------------  
---------------------  
---------------------  
---------------------

---------------8-  
-6-slide to 8----  
------------------  
------------------  
------------------  
------------------

Play this triplet 8 times:

----------------------11-  
-8- hammer on 10-----  
--------------------------  
--------------------------  
--------------------------  
--------------------------

Then the decending notes:

---------------------  
---------------------  
---------------------  
-3-2-1-0-----------  
-----------4-3-2-1-  
---------------------

My Web Site - Tunes - Pictures - Guitar Projects - Hard Rock Cafe Guitar Pins

Just for kicks, I made a quick and dirty audio file of the bridge I tabbed out.

If MyFileHut is working (and that is always ifffy), you can hear it at :

http://www.myfilehut.com/userfiles/15305/Demos/BB.mp3

I play each section of the tab, then I play it all together. Just to show off, I added the end Wink

My Web Site - Tunes - Pictures - Guitar Projects - Hard Rock Cafe Guitar Pins

Does anyone have the ending riff tab to the song? Please post if you do, Thanks.

I'm having trouble entering tab again, but I manipulated it so it kind of displays correctly when I preview it.

There are some slight variations on this, but this is the way I usually play it (it's the way I play it, or close to the way I play in the "full length tunes" section of my web page):

-6-5-6-----------------------------------------------------------------6-6--  
--------6----6-5-6----------------------------------------2---------6------  
---------------------6----6-5-6--3---3-2-3-------------3---------6--------   ----------------------------------------------------3---------------------- ----------------------------------------------1-1----------------------------  
------------------------------------------------------------------------------

--6-9-9------11-13-13-------6-9-9----------------------------------6-------------  
6----------11--------------6-----------------6-6-------------------6--------------  
--------------------------------------------6-----------6-----6----6---------------  
------------------------------------------8-----------8-----8------8----------------  
----------------------------------------------------8-----8--------8-----------------  
----------------------------------------------------------------6--6-----------------

My Web Site - Tunes - Pictures - Guitar Projects - Hard Rock Cafe Guitar Pins

Page 1 of 1
Top